ISO-10303-21;
HEADER;
/* Generated by software containing ST-Developer
 * from STEP Tools, Inc. (www.steptools.com) 
 */

FILE_DESCRIPTION(
/* description */ (''),
/* implementation_level */ '2;1');

FILE_NAME(
/* name */ 
'C:\\Workspace\\Documents\\Products\\Handling\\Rollers\\TRBB\\Customer
 step-files\\TRBB220120.stp',
/* time_stamp */ '2017-10-17T11:39:18+02:00',
/* author */ ('pb'),
/* organization */ (''),
/* preprocessor_version */ 'ST-DEVELOPER v16.5',
/* originating_system */ 'Autodesk Inventor 2017',
/* authorisation */ '');

FILE_SCHEMA (('AUTOMOTIVE_DESIGN { 1 0 10303 214 3 1 1 }'));
ENDSEC;

DATA;
#10=MECHANICAL_DESIGN_GEOMETRIC_PRESENTATION_REPRESENTATION('',(#227,#228,
#225,#223,#224,#226,#220,#219,#218,#222,#217,#221),#424);
#11=SHAPE_REPRESENTATION_RELATIONSHIP('SRR','None',#433,#12);
#12=ADVANCED_BREP_SHAPE_REPRESENTATION('',(#13),#423);
#13=MANIFOLD_SOLID_BREP('Solid2',#246);
#14=CONICAL_SURFACE('',#265,109.476281568616,1.50000000000004);
#15=CONICAL_SURFACE('',#269,109.476281568616,1.50000000000003);
#16=CYLINDRICAL_SURFACE('',#260,90.);
#17=CYLINDRICAL_SURFACE('',#267,110.);
#18=CYLINDRICAL_SURFACE('',#273,90.);
#19=CYLINDRICAL_SURFACE('',#277,22.5);
#20=CYLINDRICAL_SURFACE('',#281,15.);
#21=CYLINDRICAL_SURFACE('',#282,22.5);
#22=FACE_BOUND('',#70,.T.);
#23=FACE_BOUND('',#72,.T.);
#24=FACE_BOUND('',#74,.T.);
#25=FACE_BOUND('',#76,.T.);
#26=FACE_BOUND('',#78,.T.);
#27=FACE_BOUND('',#80,.T.);
#28=FACE_BOUND('',#82,.T.);
#29=FACE_BOUND('',#84,.T.);
#30=FACE_BOUND('',#86,.T.);
#31=FACE_BOUND('',#88,.T.);
#32=FACE_BOUND('',#90,.T.);
#33=FACE_BOUND('',#93,.T.);
#34=FACE_BOUND('',#95,.T.);
#35=CIRCLE('',#258,22.5);
#36=CIRCLE('',#259,15.);
#37=CIRCLE('',#261,90.);
#38=CIRCLE('',#262,90.);
#39=CIRCLE('',#264,108.952563137233);
#40=CIRCLE('',#266,110.);
#41=CIRCLE('',#268,110.);
#42=CIRCLE('',#270,108.952563137233);
#43=CIRCLE('',#272,90.);
#44=CIRCLE('',#274,90.);
#45=CIRCLE('',#276,22.5);
#46=CIRCLE('',#278,22.5);
#47=CIRCLE('',#280,15.);
#48=CIRCLE('',#283,22.5);
#49=FACE_OUTER_BOUND('',#66,.T.);
#50=FACE_OUTER_BOUND('',#67,.T.);
#51=FACE_OUTER_BOUND('',#68,.T.);
#52=FACE_OUTER_BOUND('',#69,.T.);
#53=FACE_OUTER_BOUND('',#71,.T.);
#54=FACE_OUTER_BOUND('',#73,.T.);
#55=FACE_OUTER_BOUND('',#75,.T.);
#56=FACE_OUTER_BOUND('',#77,.T.);
#57=FACE_OUTER_BOUND('',#79,.T.);
#58=FACE_OUTER_BOUND('',#81,.T.);
#59=FACE_OUTER_BOUND('',#83,.T.);
#60=FACE_OUTER_BOUND('',#85,.T.);
#61=FACE_OUTER_BOUND('',#87,.T.);
#62=FACE_OUTER_BOUND('',#89,.T.);
#63=FACE_OUTER_BOUND('',#91,.T.);
#64=FACE_OUTER_BOUND('',#92,.T.);
#65=FACE_OUTER_BOUND('',#94,.T.);
#66=EDGE_LOOP('',(#160,#161,#162,#163));
#67=EDGE_LOOP('',(#164,#165,#166,#167));
#68=EDGE_LOOP('',(#168,#169,#170,#171));
#69=EDGE_LOOP('',(#172));
#70=EDGE_LOOP('',(#173,#174,#175,#176));
#71=EDGE_LOOP('',(#177));
#72=EDGE_LOOP('',(#178));
#73=EDGE_LOOP('',(#179));
#74=EDGE_LOOP('',(#180));
#75=EDGE_LOOP('',(#181));
#76=EDGE_LOOP('',(#182));
#77=EDGE_LOOP('',(#183));
#78=EDGE_LOOP('',(#184));
#79=EDGE_LOOP('',(#185));
#80=EDGE_LOOP('',(#186));
#81=EDGE_LOOP('',(#187));
#82=EDGE_LOOP('',(#188));
#83=EDGE_LOOP('',(#189));
#84=EDGE_LOOP('',(#190));
#85=EDGE_LOOP('',(#191));
#86=EDGE_LOOP('',(#192));
#87=EDGE_LOOP('',(#193));
#88=EDGE_LOOP('',(#194));
#89=EDGE_LOOP('',(#195));
#90=EDGE_LOOP('',(#196,#197,#198,#199));
#91=EDGE_LOOP('',(#200,#201,#202,#203));
#92=EDGE_LOOP('',(#204));
#93=EDGE_LOOP('',(#205));
#94=EDGE_LOOP('',(#206));
#95=EDGE_LOOP('',(#207));
#96=LINE('',#363,#106);
#97=LINE('',#365,#107);
#98=LINE('',#367,#108);
#99=LINE('',#368,#109);
#100=LINE('',#371,#110);
#101=LINE('',#373,#111);
#102=LINE('',#374,#112);
#103=LINE('',#378,#113);
#104=LINE('',#379,#114);
#105=LINE('',#380,#115);
#106=VECTOR('',#289,10.);
#107=VECTOR('',#290,10.);
#108=VECTOR('',#291,10.);
#109=VECTOR('',#292,10.);
#110=VECTOR('',#295,10.);
#111=VECTOR('',#296,10.);
#112=VECTOR('',#297,10.);
#113=VECTOR('',#300,10.);
#114=VECTOR('',#301,10.);
#115=VECTOR('',#302,10.);
#116=VERTEX_POINT('',#361);
#117=VERTEX_POINT('',#362);
#118=VERTEX_POINT('',#364);
#119=VERTEX_POINT('',#366);
#120=VERTEX_POINT('',#370);
#121=VERTEX_POINT('',#372);
#122=VERTEX_POINT('',#376);
#123=VERTEX_POINT('',#377);
#124=VERTEX_POINT('',#382);
#125=VERTEX_POINT('',#386);
#126=VERTEX_POINT('',#388);
#127=VERTEX_POINT('',#391);
#128=VERTEX_POINT('',#394);
#129=VERTEX_POINT('',#397);
#130=VERTEX_POINT('',#400);
#131=VERTEX_POINT('',#403);
#132=VERTEX_POINT('',#406);
#133=VERTEX_POINT('',#409);
#134=VERTEX_POINT('',#412);
#135=VERTEX_POINT('',#418);
#136=EDGE_CURVE('',#116,#117,#96,.T.);
#137=EDGE_CURVE('',#118,#116,#97,.T.);
#138=EDGE_CURVE('',#118,#119,#98,.T.);
#139=EDGE_CURVE('',#117,#119,#99,.T.);
#140=EDGE_CURVE('',#119,#120,#100,.T.);
#141=EDGE_CURVE('',#121,#118,#101,.T.);
#142=EDGE_CURVE('',#121,#120,#102,.T.);
#143=EDGE_CURVE('',#122,#123,#103,.T.);
#144=EDGE_CURVE('',#120,#122,#104,.T.);
#145=EDGE_CURVE('',#123,#121,#105,.T.);
#146=EDGE_CURVE('',#124,#124,#35,.T.);
#147=EDGE_CURVE('',#116,#123,#36,.T.);
#148=EDGE_CURVE('',#125,#125,#37,.T.);
#149=EDGE_CURVE('',#126,#126,#38,.T.);
#150=EDGE_CURVE('',#127,#127,#39,.T.);
#151=EDGE_CURVE('',#128,#128,#40,.T.);
#152=EDGE_CURVE('',#129,#129,#41,.T.);
#153=EDGE_CURVE('',#130,#130,#42,.T.);
#154=EDGE_CURVE('',#131,#131,#43,.T.);
#155=EDGE_CURVE('',#132,#132,#44,.T.);
#156=EDGE_CURVE('',#133,#133,#45,.T.);
#157=EDGE_CURVE('',#134,#134,#46,.T.);
#158=EDGE_CURVE('',#117,#122,#47,.T.);
#159=EDGE_CURVE('',#135,#135,#48,.T.);
#160=ORIENTED_EDGE('',*,*,#136,.F.);
#161=ORIENTED_EDGE('',*,*,#137,.F.);
#162=ORIENTED_EDGE('',*,*,#138,.T.);
#163=ORIENTED_EDGE('',*,*,#139,.F.);
#164=ORIENTED_EDGE('',*,*,#140,.F.);
#165=ORIENTED_EDGE('',*,*,#138,.F.);
#166=ORIENTED_EDGE('',*,*,#141,.F.);
#167=ORIENTED_EDGE('',*,*,#142,.T.);
#168=ORIENTED_EDGE('',*,*,#143,.F.);
#169=ORIENTED_EDGE('',*,*,#144,.F.);
#170=ORIENTED_EDGE('',*,*,#142,.F.);
#171=ORIENTED_EDGE('',*,*,#145,.F.);
#172=ORIENTED_EDGE('',*,*,#146,.F.);
#173=ORIENTED_EDGE('',*,*,#145,.T.);
#174=ORIENTED_EDGE('',*,*,#141,.T.);
#175=ORIENTED_EDGE('',*,*,#137,.T.);
#176=ORIENTED_EDGE('',*,*,#147,.T.);
#177=ORIENTED_EDGE('',*,*,#148,.F.);
#178=ORIENTED_EDGE('',*,*,#149,.T.);
#179=ORIENTED_EDGE('',*,*,#150,.F.);
#180=ORIENTED_EDGE('',*,*,#148,.T.);
#181=ORIENTED_EDGE('',*,*,#151,.F.);
#182=ORIENTED_EDGE('',*,*,#150,.T.);
#183=ORIENTED_EDGE('',*,*,#152,.F.);
#184=ORIENTED_EDGE('',*,*,#151,.T.);
#185=ORIENTED_EDGE('',*,*,#153,.F.);
#186=ORIENTED_EDGE('',*,*,#152,.T.);
#187=ORIENTED_EDGE('',*,*,#153,.T.);
#188=ORIENTED_EDGE('',*,*,#154,.F.);
#189=ORIENTED_EDGE('',*,*,#155,.F.);
#190=ORIENTED_EDGE('',*,*,#154,.T.);
#191=ORIENTED_EDGE('',*,*,#155,.T.);
#192=ORIENTED_EDGE('',*,*,#156,.F.);
#193=ORIENTED_EDGE('',*,*,#157,.F.);
#194=ORIENTED_EDGE('',*,*,#156,.T.);
#195=ORIENTED_EDGE('',*,*,#157,.T.);
#196=ORIENTED_EDGE('',*,*,#144,.T.);
#197=ORIENTED_EDGE('',*,*,#158,.F.);
#198=ORIENTED_EDGE('',*,*,#139,.T.);
#199=ORIENTED_EDGE('',*,*,#140,.T.);
#200=ORIENTED_EDGE('',*,*,#143,.T.);
#201=ORIENTED_EDGE('',*,*,#147,.F.);
#202=ORIENTED_EDGE('',*,*,#136,.T.);
#203=ORIENTED_EDGE('',*,*,#158,.T.);
#204=ORIENTED_EDGE('',*,*,#159,.F.);
#205=ORIENTED_EDGE('',*,*,#146,.T.);
#206=ORIENTED_EDGE('',*,*,#149,.F.);
#207=ORIENTED_EDGE('',*,*,#159,.T.);
#208=PLANE('',#254);
#209=PLANE('',#255);
#210=PLANE('',#256);
#211=PLANE('',#257);
#212=PLANE('',#263);
#213=PLANE('',#271);
#214=PLANE('',#275);
#215=PLANE('',#279);
#216=PLANE('',#284);
#217=STYLED_ITEM('',(#443),#229);
#218=STYLED_ITEM('',(#443),#230);
#219=STYLED_ITEM('',(#443),#231);
#220=STYLED_ITEM('',(#443),#232);
#221=STYLED_ITEM('',(#444),#233);
#222=STYLED_ITEM('',(#444),#234);
#223=STYLED_ITEM('',(#443),#236);
#224=STYLED_ITEM('',(#444),#238);
#225=STYLED_ITEM('',(#444),#239);
#226=STYLED_ITEM('',(#443),#242);
#227=STYLED_ITEM('',(#443),#243);
#228=STYLED_ITEM('',(#442),#13);
#229=ADVANCED_FACE('',(#49),#208,.F.);
#230=ADVANCED_FACE('',(#50),#209,.F.);
#231=ADVANCED_FACE('',(#51),#210,.F.);
#232=ADVANCED_FACE('',(#52,#22),#211,.T.);
#233=ADVANCED_FACE('',(#53,#23),#16,.F.);
#234=ADVANCED_FACE('',(#54,#24),#212,.T.);
#235=ADVANCED_FACE('',(#55,#25),#14,.T.);
#236=ADVANCED_FACE('',(#56,#26),#17,.T.);
#237=ADVANCED_FACE('',(#57,#27),#15,.T.);
#238=ADVANCED_FACE('',(#58,#28),#213,.T.);
#239=ADVANCED_FACE('',(#59,#29),#18,.F.);
#240=ADVANCED_FACE('',(#60,#30),#214,.T.);
#241=ADVANCED_FACE('',(#61,#31),#19,.F.);
#242=ADVANCED_FACE('',(#62,#32),#215,.T.);
#243=ADVANCED_FACE('',(#63),#20,.F.);
#244=ADVANCED_FACE('',(#64,#33),#21,.F.);
#245=ADVANCED_FACE('',(#65,#34),#216,.T.);
#246=CLOSED_SHELL('',(#229,#230,#231,#232,#233,#234,#235,#236,#237,#238,
#239,#240,#241,#242,#243,#244,#245));
#247=DATE_TIME_ROLE('creation_date');
#248=APPLIED_DATE_AND_TIME_ASSIGNMENT(#249,#247,(#435));
#249=DATE_AND_TIME(#250,#251);
#250=CALENDAR_DATE(2017,17,10);
#251=LOCAL_TIME(6,4,14.,#252);
#252=COORDINATED_UNIVERSAL_TIME_OFFSET(0,0,.BEHIND.);
#253=AXIS2_PLACEMENT_3D('placement',#359,#285,#286);
#254=AXIS2_PLACEMENT_3D('',#360,#287,#288);
#255=AXIS2_PLACEMENT_3D('',#369,#293,#294);
#256=AXIS2_PLACEMENT_3D('',#375,#298,#299);
#257=AXIS2_PLACEMENT_3D('',#381,#303,#304);
#258=AXIS2_PLACEMENT_3D('',#383,#305,#306);
#259=AXIS2_PLACEMENT_3D('',#384,#307,#308);
#260=AXIS2_PLACEMENT_3D('',#385,#309,#310);
#261=AXIS2_PLACEMENT_3D('',#387,#311,#312);
#262=AXIS2_PLACEMENT_3D('',#389,#313,#314);
#263=AXIS2_PLACEMENT_3D('',#390,#315,#316);
#264=AXIS2_PLACEMENT_3D('',#392,#317,#318);
#265=AXIS2_PLACEMENT_3D('',#393,#319,#320);
#266=AXIS2_PLACEMENT_3D('',#395,#321,#322);
#267=AXIS2_PLACEMENT_3D('',#396,#323,#324);
#268=AXIS2_PLACEMENT_3D('',#398,#325,#326);
#269=AXIS2_PLACEMENT_3D('',#399,#327,#328);
#270=AXIS2_PLACEMENT_3D('',#401,#329,#330);
#271=AXIS2_PLACEMENT_3D('',#402,#331,#332);
#272=AXIS2_PLACEMENT_3D('',#404,#333,#334);
#273=AXIS2_PLACEMENT_3D('',#405,#335,#336);
#274=AXIS2_PLACEMENT_3D('',#407,#337,#338);
#275=AXIS2_PLACEMENT_3D('',#408,#339,#340);
#276=AXIS2_PLACEMENT_3D('',#410,#341,#342);
#277=AXIS2_PLACEMENT_3D('',#411,#343,#344);
#278=AXIS2_PLACEMENT_3D('',#413,#345,#346);
#279=AXIS2_PLACEMENT_3D('',#414,#347,#348);
#280=AXIS2_PLACEMENT_3D('',#415,#349,#350);
#281=AXIS2_PLACEMENT_3D('',#416,#351,#352);
#282=AXIS2_PLACEMENT_3D('',#417,#353,#354);
#283=AXIS2_PLACEMENT_3D('',#419,#355,#356);
#284=AXIS2_PLACEMENT_3D('',#420,#357,#358);
#285=DIRECTION('axis',(0.,0.,1.));
#286=DIRECTION('refdir',(1.,0.,0.));
#287=DIRECTION('center_axis',(0.,1.,2.77555756156289E-16));
#288=DIRECTION('ref_axis',(0.,2.66453525910038E-16,-1.));
#289=DIRECTION('',(-1.,0.,-3.59261311161861E-18));
#290=DIRECTION('',(3.59261311161861E-18,2.77555756156289E-16,-1.));
#291=DIRECTION('',(-1.,0.,0.));
#292=DIRECTION('',(-3.59261311161861E-18,-2.77555756156289E-16,1.));
#293=DIRECTION('center_axis',(0.,0.,1.));
#294=DIRECTION('ref_axis',(0.,1.,0.));
#295=DIRECTION('',(0.,-1.,0.));
#296=DIRECTION('',(0.,1.,0.));
#297=DIRECTION('',(-1.,0.,0.));
#298=DIRECTION('center_axis',(0.,-1.,-1.11022302462516E-16));
#299=DIRECTION('ref_axis',(0.,-8.88178419700125E-17,1.));
#300=DIRECTION('',(1.,0.,3.59261311161861E-18));
#301=DIRECTION('',(3.59261311161861E-18,1.11022302462516E-16,-1.));
#302=DIRECTION('',(-3.59261311161861E-18,-1.11022302462516E-16,1.));
#303=DIRECTION('center_axis',(1.,0.,3.59261311161861E-18));
#304=DIRECTION('ref_axis',(0.,0.,-1.));
#305=DIRECTION('center_axis',(-1.,0.,-3.59261311161861E-18));
#306=DIRECTION('ref_axis',(-3.59261311161861E-18,0.,1.));
#307=DIRECTION('center_axis',(-1.,0.,-3.59261311161861E-18));
#308=DIRECTION('ref_axis',(-3.59261311161861E-18,0.,1.));
#309=DIRECTION('center_axis',(-1.,0.,-3.59261311161861E-18));
#310=DIRECTION('ref_axis',(0.,0.,1.));
#311=DIRECTION('center_axis',(-1.,0.,-3.59261311161861E-18));
#312=DIRECTION('ref_axis',(-3.59261311161861E-18,0.,1.));
#313=DIRECTION('center_axis',(-1.,0.,-3.59261311161861E-18));
#314=DIRECTION('ref_axis',(-3.59261311161861E-18,0.,1.));
#315=DIRECTION('center_axis',(1.,0.,3.59261311161861E-18));
#316=DIRECTION('ref_axis',(0.,0.,-1.));
#317=DIRECTION('center_axis',(-1.,0.,-3.59261311161861E-18));
#318=DIRECTION('ref_axis',(-3.59261311161861E-18,0.,1.));
#319=DIRECTION('center_axis',(-1.,0.,-3.59261311161861E-18));
#320=DIRECTION('ref_axis',(0.,0.,1.));
#321=DIRECTION('center_axis',(-1.,0.,-3.59261311161861E-18));
#322=DIRECTION('ref_axis',(-3.59261311161861E-18,0.,1.));
#323=DIRECTION('center_axis',(-1.,0.,-3.59261311161861E-18));
#324=DIRECTION('ref_axis',(0.,0.,1.));
#325=DIRECTION('center_axis',(-1.,0.,-3.59261311161861E-18));
#326=DIRECTION('ref_axis',(-3.59261311161861E-18,0.,1.));
#327=DIRECTION('center_axis',(1.,0.,3.59261311161861E-18));
#328=DIRECTION('ref_axis',(0.,0.,1.));
#329=DIRECTION('center_axis',(-1.,0.,-3.59261311161861E-18));
#330=DIRECTION('ref_axis',(-3.59261311161861E-18,0.,1.));
#331=DIRECTION('center_axis',(-1.,0.,-3.59261311161861E-18));
#332=DIRECTION('ref_axis',(0.,0.,1.));
#333=DIRECTION('center_axis',(-1.,0.,-3.59261311161861E-18));
#334=DIRECTION('ref_axis',(-3.59261311161861E-18,0.,1.));
#335=DIRECTION('center_axis',(-1.,0.,-3.59261311161861E-18));
#336=DIRECTION('ref_axis',(0.,0.,1.));
#337=DIRECTION('center_axis',(-1.,0.,-3.59261311161861E-18));
#338=DIRECTION('ref_axis',(-3.59261311161861E-18,0.,1.));
#339=DIRECTION('center_axis',(-1.,0.,-3.59261311161861E-18));
#340=DIRECTION('ref_axis',(0.,0.,1.));
#341=DIRECTION('center_axis',(-1.,0.,-3.59261311161861E-18));
#342=DIRECTION('ref_axis',(-3.59261311161861E-18,0.,1.));
#343=DIRECTION('center_axis',(-1.,0.,-3.59261311161861E-18));
#344=DIRECTION('ref_axis',(0.,0.,1.));
#345=DIRECTION('center_axis',(-1.,0.,-3.59261311161861E-18));
#346=DIRECTION('ref_axis',(-3.59261311161861E-18,0.,1.));
#347=DIRECTION('center_axis',(-1.,0.,-3.59261311161861E-18));
#348=DIRECTION('ref_axis',(0.,0.,1.));
#349=DIRECTION('center_axis',(-1.,0.,-3.59261311161861E-18));
#350=DIRECTION('ref_axis',(-3.59261311161861E-18,0.,1.));
#351=DIRECTION('center_axis',(-1.,0.,-3.59261311161861E-18));
#352=DIRECTION('ref_axis',(0.,0.,1.));
#353=DIRECTION('center_axis',(-1.,0.,-3.59261311161861E-18));
#354=DIRECTION('ref_axis',(0.,0.,1.));
#355=DIRECTION('center_axis',(-1.,0.,-3.59261311161861E-18));
#356=DIRECTION('ref_axis',(-3.59261311161861E-18,0.,1.));
#357=DIRECTION('center_axis',(1.,0.,3.59261311161861E-18));
#358=DIRECTION('ref_axis',(0.,0.,-1.));
#359=CARTESIAN_POINT('',(0.,0.,0.));
#360=CARTESIAN_POINT('Origin',(36.5,4.,18.2));
#361=CARTESIAN_POINT('',(36.5,4.,14.456832294801));
#362=CARTESIAN_POINT('',(-36.5,4.,14.456832294801));
#363=CARTESIAN_POINT('',(-1.92450259390439E-17,4.,14.456832294801));
#364=CARTESIAN_POINT('',(36.5,4.,18.2));
#365=CARTESIAN_POINT('',(36.5,4.,20.35));
#366=CARTESIAN_POINT('',(-36.5,4.,18.2));
#367=CARTESIAN_POINT('',(36.5,4.,18.2));
#368=CARTESIAN_POINT('',(-36.5,4.,16.6));
#369=CARTESIAN_POINT('Origin',(36.5,-4.,18.2));
#370=CARTESIAN_POINT('',(-36.5,-4.,18.2));
#371=CARTESIAN_POINT('',(-36.5,-2.,18.2));
#372=CARTESIAN_POINT('',(36.5,-4.,18.2));
#373=CARTESIAN_POINT('',(36.5,-2.,18.2));
#374=CARTESIAN_POINT('',(36.5,-4.,18.2));
#375=CARTESIAN_POINT('Origin',(36.5,-4.,8.2));
#376=CARTESIAN_POINT('',(-36.5,-4.,14.456832294801));
#377=CARTESIAN_POINT('',(36.5,-4.,14.456832294801));
#378=CARTESIAN_POINT('',(-3.7208091497137E-17,-4.,14.456832294801));
#379=CARTESIAN_POINT('',(-36.5,-4.,11.6));
#380=CARTESIAN_POINT('',(36.5,-4.,15.35));
#381=CARTESIAN_POINT('Origin',(36.5,0.,22.5));
#382=CARTESIAN_POINT('',(36.5,0.,22.5));
#383=CARTESIAN_POINT('Origin',(36.5,0.,-8.44264081230359E-17));
#384=CARTESIAN_POINT('Origin',(36.5,0.,-8.44264081230359E-17));
#385=CARTESIAN_POINT('Origin',(48.75,0.,-4.04168975057079E-17));
#386=CARTESIAN_POINT('',(60.,0.,90.));
#387=CARTESIAN_POINT('Origin',(60.,0.,1.50992907639959E-30));
#388=CARTESIAN_POINT('',(37.5,0.,90.));
#389=CARTESIAN_POINT('Origin',(37.5,0.,-8.08337950114173E-17));
#390=CARTESIAN_POINT('Origin',(60.,0.,108.952563137233));
#391=CARTESIAN_POINT('',(60.,0.,108.952563137233));
#392=CARTESIAN_POINT('Origin',(60.,0.,1.50992907639959E-30));
#393=CARTESIAN_POINT('Origin',(40.,0.,-7.18522622323707E-17));
#394=CARTESIAN_POINT('',(20.,0.,110.));
#395=CARTESIAN_POINT('Origin',(20.,0.,-1.43704524464743E-16));
#396=CARTESIAN_POINT('Origin',(0.,0.,-2.15556786697115E-16));
#397=CARTESIAN_POINT('',(-20.,0.,110.));
#398=CARTESIAN_POINT('Origin',(-20.,0.,-2.87409048929487E-16));
#399=CARTESIAN_POINT('Origin',(-40.,0.,-3.5926131116186E-16));
#400=CARTESIAN_POINT('',(-60.,0.,108.952563137233));
#401=CARTESIAN_POINT('Origin',(-60.,0.,-4.31113573394232E-16));
#402=CARTESIAN_POINT('Origin',(-60.,0.,90.));
#403=CARTESIAN_POINT('',(-60.,0.,90.));
#404=CARTESIAN_POINT('Origin',(-60.,0.,-4.31113573394232E-16));
#405=CARTESIAN_POINT('Origin',(-48.75,0.,-3.90696675888523E-16));
#406=CARTESIAN_POINT('',(-37.5,0.,90.));
#407=CARTESIAN_POINT('Origin',(-37.5,0.,-3.50279778382813E-16));
#408=CARTESIAN_POINT('Origin',(-37.5,0.,22.5));
#409=CARTESIAN_POINT('',(-37.5,0.,22.5));
#410=CARTESIAN_POINT('Origin',(-37.5,0.,-3.50279778382813E-16));
#411=CARTESIAN_POINT('Origin',(-37.,0.,-3.48483471827004E-16));
#412=CARTESIAN_POINT('',(-36.5,0.,22.5));
#413=CARTESIAN_POINT('Origin',(-36.5,0.,-3.46687165271195E-16));
#414=CARTESIAN_POINT('Origin',(-36.5,0.,15.));
#415=CARTESIAN_POINT('Origin',(-36.5,0.,-3.46687165271195E-16));
#416=CARTESIAN_POINT('Origin',(0.,0.,-2.15556786697115E-16));
#417=CARTESIAN_POINT('Origin',(37.,0.,-8.26301015672266E-17));
#418=CARTESIAN_POINT('',(37.5,0.,22.5));
#419=CARTESIAN_POINT('Origin',(37.5,0.,-8.08337950114173E-17));
#420=CARTESIAN_POINT('Origin',(37.5,0.,90.));
#421=UNCERTAINTY_MEASURE_WITH_UNIT(LENGTH_MEASURE(0.01),#425,
'DISTANCE_ACCURACY_VALUE',
'Maximum model space distance between geometric entities at asserted c
onnectivities');
#422=UNCERTAINTY_MEASURE_WITH_UNIT(LENGTH_MEASURE(1.E-6),#425,
'DISTANCE_ACCURACY_VALUE',
'Maximum model space distance between geometric entities at asserted c
onnectivities');
#423=(
GEOMETRIC_REPRESENTATION_CONTEXT(3)
GLOBAL_UNCERTAINTY_ASSIGNED_CONTEXT((#421))
GLOBAL_UNIT_ASSIGNED_CONTEXT((#425,#428,#426))
REPRESENTATION_CONTEXT('','3D')
);
#424=(
GEOMETRIC_REPRESENTATION_CONTEXT(3)
GLOBAL_UNCERTAINTY_ASSIGNED_CONTEXT((#422))
GLOBAL_UNIT_ASSIGNED_CONTEXT((#425,#428,#426))
REPRESENTATION_CONTEXT('','3D')
);
#425=(
LENGTH_UNIT()
NAMED_UNIT(*)
SI_UNIT(.MILLI.,.METRE.)
);
#426=(
NAMED_UNIT(*)
SI_UNIT($,.STERADIAN.)
SOLID_ANGLE_UNIT()
);
#427=DIMENSIONAL_EXPONENTS(0.,0.,0.,0.,0.,0.,0.);
#428=(
CONVERSION_BASED_UNIT('degree',#430)
NAMED_UNIT(#427)
PLANE_ANGLE_UNIT()
);
#429=(
NAMED_UNIT(*)
PLANE_ANGLE_UNIT()
SI_UNIT($,.RADIAN.)
);
#430=PLANE_ANGLE_MEASURE_WITH_UNIT(PLANE_ANGLE_MEASURE(0.01745329252),#429);
#431=SHAPE_DEFINITION_REPRESENTATION(#432,#433);
#432=PRODUCT_DEFINITION_SHAPE('',$,#435);
#433=SHAPE_REPRESENTATION('',(#253),#423);
#434=PRODUCT_DEFINITION_CONTEXT('part definition',#439,'design');
#435=PRODUCT_DEFINITION('Part1','Part1',#436,#434);
#436=PRODUCT_DEFINITION_FORMATION('',$,#441);
#437=PRODUCT_RELATED_PRODUCT_CATEGORY('Part1','Part1',(#441));
#438=APPLICATION_PROTOCOL_DEFINITION('international standard',
'automotive_design',2009,#439);
#439=APPLICATION_CONTEXT(
'Core Data for Automotive Mechanical Design Process');
#440=PRODUCT_CONTEXT('part definition',#439,'mechanical');
#441=PRODUCT('Part1','Part1',$,(#440));
#442=PRESENTATION_STYLE_ASSIGNMENT((#445));
#443=PRESENTATION_STYLE_ASSIGNMENT((#446));
#444=PRESENTATION_STYLE_ASSIGNMENT((#447));
#445=SURFACE_STYLE_USAGE(.BOTH.,#448);
#446=SURFACE_STYLE_USAGE(.BOTH.,#449);
#447=SURFACE_STYLE_USAGE(.BOTH.,#450);
#448=SURFACE_SIDE_STYLE('',(#451));
#449=SURFACE_SIDE_STYLE('',(#452));
#450=SURFACE_SIDE_STYLE('',(#453));
#451=SURFACE_STYLE_FILL_AREA(#454);
#452=SURFACE_STYLE_FILL_AREA(#455);
#453=SURFACE_STYLE_FILL_AREA(#456);
#454=FILL_AREA_STYLE('',(#457));
#455=FILL_AREA_STYLE('',(#458));
#456=FILL_AREA_STYLE('',(#459));
#457=FILL_AREA_STYLE_COLOUR('',#460);
#458=FILL_AREA_STYLE_COLOUR('',#461);
#459=FILL_AREA_STYLE_COLOUR('',#462);
#460=COLOUR_RGB('',0.745098039215686,0.737254901960784,0.729411764705882);
#461=COLOUR_RGB('',0.905882352941176,0.83921568627451,0.674509803921569);
#462=COLOUR_RGB('',0.698039215686274,0.,0.);
ENDSEC;
END-ISO-10303-21;
